== TABS ==

Don't Walk Away(bass tab)

Intro:
Part1
Lyrics:

Ah Ha Ha
G-----------------------------------------------|
D-----------------------------------------------|
A-----------------------------------------------|
E-2---3---4--4-4-4-4-4-4-4-4-4-4-4-4-4-4-4-4-4--|

Part2

G-------------------------------------------------|
D-------------------------------------------------|
A-------------------------------------------------|
E-7-6-4-4-4-4-4-4-4-7-6-4-4-4-4-4-4-4-4-2-2-2-2-2-|

Part3

G---------------------------------------------|
D---------------------------------------------|
A---------------------------------------------|
E-7-6-4-4-4-4-4-4-4-7-6-4-4-4-4-4-4-4-2--3--4-|

Verse:

G-------------------------------------------------|
D-------------------------------------------------|
A-------------------------------------------------|
E-7-6-4-4-4-4-4-4-4-7-6-4-4-4-4-4-4-4-4-2-2-2-2-2-|

Refrain:

G-----------------------------------------------|
D-----------------------------------------------|
A-----------------------------------------------|
E-7-6-4-4-4-4-4-4-4-7-6-4-4-4-4-4-4-4-4-2-2-2-2-|

 

 

Heavy Artillery 

Tuning: Standard E

Intro:
e|---------------------------------------------------------------------------|
B|---17------15------13------10----------------------------------------------|
G|---19b21---17b19---15b17---12b14-------------------------------------------|
D|---------------------------------------------------------------------------|
A|---------------------------------------------------------------------------|
E|----------------------------------3-0-3-0-3--------------------------------|

Verse:
e|---------------------------------------------------------------------------|
B|---------------------------------------------------------------------------|
G|-----------------------------------------------------7-6-------------------|
D|---7/-9-99---7/-9-99---7-9-7-99-------5-5-55---7-77--5-4-------------------|
A|---5/-7-77---5/-7-77---5-7-5-77-------5-5-55---5-55------------------------|
E|--------------------------------------3-3-33-------------------------------|

e|---------------------------------------------------------------------------|
B|---------------------------------------------------------------------------|
G|--------------------------------------5-5-55-------------------------------|
D|---7/-9-99---7/-9-99---7-9-7-99-------5-5-55---7-5-4---5-4-----------------|
A|---5/-7-77---5/-7-77---5-7-5-77-------3-3-33---------5-----5---------------|
E|---------------------------------------------------------------------------|

Bridge:
e|---------------------------------------------------------------------------|
B|---------------------------------------------------------------------------|
G|---5555555555---------7------------7-6-------------------------------------|
D|---5555555555--33-22--7----8-7-77--5-4-------------------------------------|
A|---3333333333---------5----------------------------------------------------|
E|------------------------555------------------------------------------------|

e|---12----------------------------------------------------------------------|
B|---15b17-------------------------------------------------------------------|
G|---------------------------------------------------------------------------|
D|---------------------------------------------------------------------------|
A|---------------------------------------------------------------------------|
E|---------------------------------------------------------------------------|

Chorus: exactly like verse

Solo:
e|---------------------------------------------------------------------------|
B|---------------------------------------------------------------------------|
G|-----------------------------9----911b13b11----------9--------------------|
D|-------7--979----9/11-9-11-9---11------------------11---11-9-7-9-11-9------|
A|---979--------9------------------------------------------------------------|
E|---------------------------------------------------------------------------|

e|---------------------------------------------------------------------------|
B|---------------------------------------------------------------------------|
G|-----------------------------9----9-11b13b11----------9--------------------|
D|-------7--979----9/11-9-11-9---11------------------11---11-9-7-9-11-9--10--|
A|---979--------9------------------------------------------------------------|
E|---------------------------------------------------------------------------|
Break and End:
e|---------------------------------------------------------------------------|
B|15b17-15b17-15b17-15b17-15b17-15b17-15b17-15b17-15b17-15b17-15b17-15b17----|
G|---------------------------------------------------------------------------|
D|---------------------------------------------------------------------------|
A|---------------------------------------------------------------------------|
E|---------------------------------------------------------------------------|

| / slide up
| \ slide down
| h hammer-on
| p pull-off
| ~ vibrato
| + harmonic
| x Mute note
| b Bend
| pb Pre-bend
| br Bend release
| pbr Pre-bend release
| brb Bend release bend


Go to This Means War tabs

Tabs provided by Ultimate-Guitar.com